ISO-10303-21;
HEADER;
/* Generated by software containing ST-Developer
 * from STEP Tools, Inc. (www.steptools.com) 
 */

FILE_DESCRIPTION(
/* description */ (''),
/* implementation_level */ '2;1');

FILE_NAME(
/* name */ 
'C:/Users/NexxCat/Documents/GitHub/lab.ratrig.com/docs/src/cad/compone
nts/HW2828GC-Magnet - Neodymium disc shape - 10mm x 4mm.step',
/* time_stamp */ '2022-10-11T10:51:25+01:00',
/* author */ (''),
/* organization */ (''),
/* preprocessor_version */ 'ST-DEVELOPER v19',
/* originating_system */ 'Autodesk Translation Framework v11.7.0.108',
/* authorisation */ '');

FILE_SCHEMA (('AUTOMOTIVE_DESIGN { 1 0 10303 214 3 1 1 }'));
ENDSEC;

DATA;
#10=MECHANICAL_DESIGN_GEOMETRIC_PRESENTATION_REPRESENTATION('',(#13),#156);
#11=SHAPE_REPRESENTATION_RELATIONSHIP('SRR','None',#163,#12);
#12=ADVANCED_BREP_SHAPE_REPRESENTATION('',(#14),#155);
#13=STYLED_ITEM('',(#172),#14);
#14=MANIFOLD_SOLID_BREP('Body1',#80);
#15=PLANE('',#101);
#16=PLANE('',#104);
#17=CYLINDRICAL_SURFACE('',#98,5.);
#18=FACE_OUTER_BOUND('',#23,.T.);
#19=FACE_OUTER_BOUND('',#24,.T.);
#20=FACE_OUTER_BOUND('',#25,.T.);
#21=FACE_OUTER_BOUND('',#26,.T.);
#22=FACE_OUTER_BOUND('',#27,.T.);
#23=EDGE_LOOP('',(#55,#56,#57,#58,#59));
#24=EDGE_LOOP('',(#60,#61,#62,#63,#64,#65));
#25=EDGE_LOOP('',(#66));
#26=EDGE_LOOP('',(#67,#68,#69,#70,#71));
#27=EDGE_LOOP('',(#72));
#28=LINE('',#137,#31);
#29=LINE('',#146,#32);
#30=LINE('',#151,#33);
#31=VECTOR('',#111,4.875);
#32=VECTOR('',#122,5.);
#33=VECTOR('',#129,4.875);
#34=CIRCLE('',#95,4.75);
#35=CIRCLE('',#96,5.);
#36=CIRCLE('',#97,5.);
#37=CIRCLE('',#99,5.);
#38=CIRCLE('',#100,5.);
#39=CIRCLE('',#103,4.75);
#40=VERTEX_POINT('',#134);
#41=VERTEX_POINT('',#136);
#42=VERTEX_POINT('',#138);
#43=VERTEX_POINT('',#142);
#44=VERTEX_POINT('',#143);
#45=VERTEX_POINT('',#149);
#46=EDGE_CURVE('',#40,#40,#34,.T.);
#47=EDGE_CURVE('',#40,#41,#28,.T.);
#48=EDGE_CURVE('',#41,#42,#35,.T.);
#49=EDGE_CURVE('',#42,#41,#36,.T.);
#50=EDGE_CURVE('',#43,#44,#37,.T.);
#51=EDGE_CURVE('',#44,#43,#38,.T.);
#52=EDGE_CURVE('',#44,#42,#29,.T.);
#53=EDGE_CURVE('',#45,#45,#39,.T.);
#54=EDGE_CURVE('',#45,#43,#30,.T.);
#55=ORIENTED_EDGE('',*,*,#46,.T.);
#56=ORIENTED_EDGE('',*,*,#47,.T.);
#57=ORIENTED_EDGE('',*,*,#48,.T.);
#58=ORIENTED_EDGE('',*,*,#49,.T.);
#59=ORIENTED_EDGE('',*,*,#47,.F.);
#60=ORIENTED_EDGE('',*,*,#50,.F.);
#61=ORIENTED_EDGE('',*,*,#51,.F.);
#62=ORIENTED_EDGE('',*,*,#52,.T.);
#63=ORIENTED_EDGE('',*,*,#48,.F.);
#64=ORIENTED_EDGE('',*,*,#49,.F.);
#65=ORIENTED_EDGE('',*,*,#52,.F.);
#66=ORIENTED_EDGE('',*,*,#46,.F.);
#67=ORIENTED_EDGE('',*,*,#53,.T.);
#68=ORIENTED_EDGE('',*,*,#54,.T.);
#69=ORIENTED_EDGE('',*,*,#50,.T.);
#70=ORIENTED_EDGE('',*,*,#51,.T.);
#71=ORIENTED_EDGE('',*,*,#54,.F.);
#72=ORIENTED_EDGE('',*,*,#53,.F.);
#73=CONICAL_SURFACE('',#94,4.875,0.785398163397449);
#74=CONICAL_SURFACE('',#102,4.875,0.785398163397448);
#75=ADVANCED_FACE('',(#18),#73,.T.);
#76=ADVANCED_FACE('',(#19),#17,.T.);
#77=ADVANCED_FACE('',(#20),#15,.T.);
#78=ADVANCED_FACE('',(#21),#74,.T.);
#79=ADVANCED_FACE('',(#22),#16,.T.);
#80=CLOSED_SHELL('',(#75,#76,#77,#78,#79));
#81=DERIVED_UNIT_ELEMENT(#83,1.);
#82=DERIVED_UNIT_ELEMENT(#158,-3.);
#83=(
MASS_UNIT()
NAMED_UNIT(*)
SI_UNIT(.KILO.,.GRAM.)
);
#84=DERIVED_UNIT((#81,#82));
#85=MEASURE_REPRESENTATION_ITEM('density measure',
POSITIVE_RATIO_MEASURE(7850.),#84);
#86=PROPERTY_DEFINITION_REPRESENTATION(#91,#88);
#87=PROPERTY_DEFINITION_REPRESENTATION(#92,#89);
#88=REPRESENTATION('material name',(#90),#155);
#89=REPRESENTATION('density',(#85),#155);
#90=DESCRIPTIVE_REPRESENTATION_ITEM('Steel','Steel');
#91=PROPERTY_DEFINITION('material property','material name',#165);
#92=PROPERTY_DEFINITION('material property','density of part',#165);
#93=AXIS2_PLACEMENT_3D('placement',#132,#105,#106);
#94=AXIS2_PLACEMENT_3D('',#133,#107,#108);
#95=AXIS2_PLACEMENT_3D('',#135,#109,#110);
#96=AXIS2_PLACEMENT_3D('',#139,#112,#113);
#97=AXIS2_PLACEMENT_3D('',#140,#114,#115);
#98=AXIS2_PLACEMENT_3D('',#141,#116,#117);
#99=AXIS2_PLACEMENT_3D('',#144,#118,#119);
#100=AXIS2_PLACEMENT_3D('',#145,#120,#121);
#101=AXIS2_PLACEMENT_3D('',#147,#123,#124);
#102=AXIS2_PLACEMENT_3D('',#148,#125,#126);
#103=AXIS2_PLACEMENT_3D('',#150,#127,#128);
#104=AXIS2_PLACEMENT_3D('',#152,#130,#131);
#105=DIRECTION('axis',(0.,0.,1.));
#106=DIRECTION('refdir',(1.,0.,0.));
#107=DIRECTION('center_axis',(0.,0.,1.));
#108=DIRECTION('ref_axis',(-1.,0.,0.));
#109=DIRECTION('center_axis',(0.,0.,1.));
#110=DIRECTION('ref_axis',(-1.,0.,0.));
#111=DIRECTION('',(0.707106781186548,-8.65956056235494E-17,0.707106781186547));
#112=DIRECTION('center_axis',(0.,0.,-1.));
#113=DIRECTION('ref_axis',(-1.,0.,0.));
#114=DIRECTION('center_axis',(0.,0.,-1.));
#115=DIRECTION('ref_axis',(-1.,0.,0.));
#116=DIRECTION('center_axis',(0.,0.,1.));
#117=DIRECTION('ref_axis',(1.,0.,0.));
#118=DIRECTION('center_axis',(0.,0.,1.));
#119=DIRECTION('ref_axis',(-1.,0.,0.));
#120=DIRECTION('center_axis',(0.,0.,1.));
#121=DIRECTION('ref_axis',(-1.,0.,0.));
#122=DIRECTION('',(0.,0.,-1.));
#123=DIRECTION('center_axis',(0.,0.,-1.));
#124=DIRECTION('ref_axis',(-1.,0.,0.));
#125=DIRECTION('center_axis',(0.,0.,-1.));
#126=DIRECTION('ref_axis',(-1.,0.,0.));
#127=DIRECTION('center_axis',(0.,0.,-1.));
#128=DIRECTION('ref_axis',(-1.,0.,0.));
#129=DIRECTION('',(0.707106781186547,8.65956056235493E-17,-0.707106781186547));
#130=DIRECTION('center_axis',(0.,0.,1.));
#131=DIRECTION('ref_axis',(1.,0.,0.));
#132=CARTESIAN_POINT('',(0.,0.,0.));
#133=CARTESIAN_POINT('Origin',(0.,0.,0.125));
#134=CARTESIAN_POINT('',(4.75,5.81707229594993E-16,0.));
#135=CARTESIAN_POINT('Origin',(0.,0.,0.));
#136=CARTESIAN_POINT('',(5.,-6.12323399573677E-16,0.25));
#137=CARTESIAN_POINT('',(4.875,-5.97015314584335E-16,0.125));
#138=CARTESIAN_POINT('',(-5.,-6.12323399573677E-16,0.25));
#139=CARTESIAN_POINT('Origin',(0.,0.,0.25));
#140=CARTESIAN_POINT('Origin',(0.,0.,0.25));
#141=CARTESIAN_POINT('Origin',(0.,0.,1.5));
#142=CARTESIAN_POINT('',(5.,6.12323399573677E-16,2.75));
#143=CARTESIAN_POINT('',(-5.,-6.12323399573677E-16,2.75));
#144=CARTESIAN_POINT('Origin',(0.,0.,2.75));
#145=CARTESIAN_POINT('Origin',(0.,0.,2.75));
#146=CARTESIAN_POINT('',(-5.,-6.12323399573677E-16,1.5));
#147=CARTESIAN_POINT('Origin',(0.,0.,0.));
#148=CARTESIAN_POINT('Origin',(0.,0.,2.875));
#149=CARTESIAN_POINT('',(4.75,-5.81707229594993E-16,3.));
#150=CARTESIAN_POINT('Origin',(0.,0.,3.));
#151=CARTESIAN_POINT('',(4.875,5.97015314584335E-16,2.875));
#152=CARTESIAN_POINT('Origin',(0.,0.,3.));
#153=UNCERTAINTY_MEASURE_WITH_UNIT(LENGTH_MEASURE(0.01),#157,
'DISTANCE_ACCURACY_VALUE',
'Maximum model space distance between geometric entities at asserted c
onnectivities');
#154=UNCERTAINTY_MEASURE_WITH_UNIT(LENGTH_MEASURE(0.01),#157,
'DISTANCE_ACCURACY_VALUE',
'Maximum model space distance between geometric entities at asserted c
onnectivities');
#155=(
GEOMETRIC_REPRESENTATION_CONTEXT(3)
GLOBAL_UNCERTAINTY_ASSIGNED_CONTEXT((#153))
GLOBAL_UNIT_ASSIGNED_CONTEXT((#157,#159,#160))
REPRESENTATION_CONTEXT('','3D')
);
#156=(
GEOMETRIC_REPRESENTATION_CONTEXT(3)
GLOBAL_UNCERTAINTY_ASSIGNED_CONTEXT((#154))
GLOBAL_UNIT_ASSIGNED_CONTEXT((#157,#159,#160))
REPRESENTATION_CONTEXT('','3D')
);
#157=(
LENGTH_UNIT()
NAMED_UNIT(*)
SI_UNIT(.MILLI.,.METRE.)
);
#158=(
LENGTH_UNIT()
NAMED_UNIT(*)
SI_UNIT($,.METRE.)
);
#159=(
NAMED_UNIT(*)
PLANE_ANGLE_UNIT()
SI_UNIT($,.RADIAN.)
);
#160=(
NAMED_UNIT(*)
SI_UNIT($,.STERADIAN.)
SOLID_ANGLE_UNIT()
);
#161=SHAPE_DEFINITION_REPRESENTATION(#162,#163);
#162=PRODUCT_DEFINITION_SHAPE('',$,#165);
#163=SHAPE_REPRESENTATION('',(#93),#155);
#164=PRODUCT_DEFINITION_CONTEXT('part definition',#169,'design');
#165=PRODUCT_DEFINITION('HW2828GC',
'Magnet - Neodymium disc shape - 10mm x 4mm v1',#166,#164);
#166=PRODUCT_DEFINITION_FORMATION('',$,#171);
#167=PRODUCT_RELATED_PRODUCT_CATEGORY(
'Magnet - Neodymium disc shape - 10mm x 4mm v1',
'Magnet - Neodymium disc shape - 10mm x 4mm v1',(#171));
#168=APPLICATION_PROTOCOL_DEFINITION('international standard',
'automotive_design',2009,#169);
#169=APPLICATION_CONTEXT(
'Core Data for Automotive Mechanical Design Process');
#170=PRODUCT_CONTEXT('part definition',#169,'mechanical');
#171=PRODUCT('HW2828GC','Magnet - Neodymium disc shape - 10mm x 4mm v1',
$,(#170));
#172=PRESENTATION_STYLE_ASSIGNMENT((#173));
#173=SURFACE_STYLE_USAGE(.BOTH.,#174);
#174=SURFACE_SIDE_STYLE('',(#175));
#175=SURFACE_STYLE_FILL_AREA(#176);
#176=FILL_AREA_STYLE('Chrome',(#177));
#177=FILL_AREA_STYLE_COLOUR('Chrome',#178);
#178=COLOUR_RGB('Chrome',0.768627450980392,0.772549019607843,0.768627450980392);
ENDSEC;
END-ISO-10303-21;
